ISO-10303-21;
HEADER;
FILE_DESCRIPTION (( 'STEP AP203' ),
    '1' );
FILE_NAME ('End Cap SDR11_001 117 0140 0063.step',
    '2019-12-16T11:41:08',
    ( '' ),
    ( '' ),
    'SwSTEP 2.0',
    'SolidWorks 2019',
    '' );
FILE_SCHEMA (( 'CONFIG_CONTROL_DESIGN' ));
ENDSEC;

DATA;
#1 = CARTESIAN_POINT ( 'NONE',  ( 0.0000000000000000000, -21.55017244698107248, 1.114820922178672680 ) ) ;
#2 = CC_DESIGN_APPROVAL ( #249, ( #242 ) ) ;
#3 = PERSON_AND_ORGANIZATION ( #218, #217 ) ;
#4 = PERSON_AND_ORGANIZATION ( #218, #217 ) ;
#5 = ORIENTED_EDGE ( 'NONE', *, *, #51, .F. ) ;
#6 = PERSON_AND_ORGANIZATION ( #218, #217 ) ;
#7 = EDGE_CURVE ( 'NONE', #101, #157, #247, .T. ) ;
#8 = ORIENTED_EDGE ( 'NONE', *, *, #28, .F. ) ;
#9 = APPROVAL_ROLE ( '' ) ;
#10 = ORIENTED_EDGE ( 'NONE', *, *, #28, .T. ) ;
#11 = VERTEX_POINT ( 'NONE', #261 ) ;
#12 = ADVANCED_FACE ( 'NONE', ( #34 ), #235, .F. ) ;
#13 =( GEOMETRIC_REPRESENTATION_CONTEXT ( 3 ) GLOBAL_UNCERTAINTY_ASSIGNED_CONTEXT ( ( #304 ) ) GLOBAL_UNIT_ASSIGNED_CONTEXT ( ( #172, #147, #122 ) ) REPRESENTATION_CONTEXT ( 'NONE', 'WORKASPACE' ) );
#14 = CARTESIAN_POINT ( 'NONE',  ( 0.0000000000000000000, -21.55017244698107248, 0.0000000000000000000 ) ) ;
#15 = CARTESIAN_POINT ( 'NONE',  ( 0.0000000000000000000, -21.55017244698107248, 0.0000000000000000000 ) ) ;
#16 = APPROVAL_PERSON_ORGANIZATION ( #270, #216, #151 ) ;
#17 = LINE ( 'NONE', #115, #155 ) ;
#18 = LINE ( 'NONE', #116, #289 ) ;
#19 = CARTESIAN_POINT ( 'NONE',  ( 3.857637417314161900E-15, 67.14325152692028098, 31.49999999999998579 ) ) ;
#20 = ADVANCED_FACE ( 'NONE', ( #236 ), #298, .F. ) ;
#21 = DIRECTION ( 'NONE',  ( 0.0000000000000000000, 0.0000000000000000000, -1.000000000000000000 ) ) ;
#22 = AXIS2_PLACEMENT_3D ( 'NONE', #148, #250, #24 ) ;
#23 = DIRECTION ( 'NONE',  ( 0.0000000000000000000, 0.0000000000000000000, -1.000000000000000000 ) ) ;
#24 = DIRECTION ( 'NONE',  ( 1.000000000000000000, 0.0000000000000000000, 0.0000000000000000000 ) ) ;
#25 = CALENDAR_DATE ( 2019, 16, 12 ) ;
#26 = ORIENTED_EDGE ( 'NONE', *, *, #144, .F. ) ;
#27 = CALENDAR_DATE ( 2019, 16, 12 ) ;
#28 = EDGE_CURVE ( 'NONE', #101, #150, #223, .T. ) ;
#29 = VERTEX_POINT ( 'NONE', #36 ) ;
#30 = AXIS2_PLACEMENT_3D ( 'NONE', #1, #93, #197 ) ;
#31 = DATE_TIME_ROLE ( 'classification_date' ) ;
#32 = VERTEX_POINT ( 'NONE', #136 ) ;
#33 = EDGE_LOOP ( 'NONE', ( #5, #293, #260, #26 ) ) ;
#34 = FACE_OUTER_BOUND ( 'NONE', #179, .T. ) ;
#35 = CIRCLE ( 'NONE', #30, 88.70042999840951836 ) ;
#36 = CARTESIAN_POINT ( 'NONE',  ( 3.857637417314162689E-15, 0.0000000000000000000, 31.50000000000000000 ) ) ;
#37 = FACE_OUTER_BOUND ( 'NONE', #158, .T. ) ;
#38 = ADVANCED_FACE ( 'NONE', ( #237 ), #203, .T. ) ;
#39 = LINE ( 'NONE', #138, #162 ) ;
#40 = AXIS2_PLACEMENT_3D ( 'NONE', #46, #120, #225 ) ;
#41 = CARTESIAN_POINT ( 'NONE',  ( 0.0000000000000000000, 0.0000000000000000000, 0.0000000000000000000 ) ) ;
#42 = APPLICATION_CONTEXT ( 'configuration controlled 3d designs of mechanical parts and assemblies' ) ;
#43 = CARTESIAN_POINT ( 'NONE',  ( 0.0000000000000000000, 0.0000000000000000000, 0.0000000000000000000 ) ) ;
#44 = EDGE_CURVE ( 'NONE', #233, #176, #193, .T. ) ;
#45 = DIRECTION ( 'NONE',  ( 0.0000000000000000000, 0.0000000000000000000, -1.000000000000000000 ) ) ;
#46 = CARTESIAN_POINT ( 'NONE',  ( 0.0000000000000000000, 63.00000000000000000, 0.0000000000000000000 ) ) ;
#47 = CIRCLE ( 'NONE', #40, 25.69999999999999574 ) ;
#48 = AXIS2_PLACEMENT_3D ( 'NONE', #146, #248, #23 ) ;
#49 = APPROVAL_STATUS ( 'not_yet_approved' ) ;
#50 = ORIENTED_EDGE ( 'NONE', *, *, #160, .F. ) ;
#51 = EDGE_CURVE ( 'NONE', #150, #29, #63, .T. ) ;
#52 = APPROVAL_STATUS ( 'not_yet_approved' ) ;
#53 = EDGE_LOOP ( 'NONE', ( #291, #273, #133, #127 ) ) ;
#54 = COORDINATED_UNIVERSAL_TIME_OFFSET ( 3, 0, .AHEAD. ) ;
#55 = ORIENTED_EDGE ( 'NONE', *, *, #135, .F. ) ;
#56 = AXIS2_PLACEMENT_3D ( 'NONE', #196, #285, #70 ) ;
#57 = CC_DESIGN_APPROVAL ( #216, ( #156 ) ) ;
#58 = ORIENTED_EDGE ( 'NONE', *, *, #94, .T. ) ;
#59 = APPLICATION_CONTEXT ( 'configuration controlled 3d designs of mechanical parts and assemblies' ) ;
#60 = DIRECTION ( 'NONE',  ( -1.000000000000000000, 0.0000000000000000000, 0.0000000000000000000 ) ) ;
#61 = CARTESIAN_POINT ( 'NONE',  ( -1.365261873968612122E-16, -21.55017244698107248, -1.114820922178672680 ) ) ;
#62 = TOROIDAL_SURFACE ( 'NONE', #48, -1.114820922178672680, 94.50000000000001421 ) ;
#63 = LINE ( 'NONE', #163, #262 ) ;
#64 = ADVANCED_FACE ( 'NONE', ( #37 ), #181, .F. ) ;
#65 = CARTESIAN_POINT ( 'NONE',  ( 0.0000000000000000000, 0.0000000000000000000, 0.0000000000000000000 ) ) ;
#66 = DIRECTION ( 'NONE',  ( 0.0000000000000000000, 0.0000000000000000000, -1.000000000000000000 ) ) ;
#67 = CARTESIAN_POINT ( 'NONE',  ( 0.0000000000000000000, 0.0000000000000000000, 0.0000000000000000000 ) ) ;
#68 = EDGE_CURVE ( 'NONE', #103, #29, #171, .T. ) ;
#69 = CARTESIAN_POINT ( 'NONE',  ( 0.0000000000000000000, 67.14325152692028098, -31.49999999999998579 ) ) ;
#70 = DIRECTION ( 'NONE',  ( 0.0000000000000000000, 0.0000000000000000000, -1.000000000000000000 ) ) ;
#71 = AXIS2_PLACEMENT_3D ( 'NONE', #143, #246, #21 ) ;
#72 = APPROVAL_PERSON_ORGANIZATION ( #4, #189, #149 ) ;
#73 = ADVANCED_FACE ( 'NONE', ( #188 ), #280, .T. ) ;
#74 = CIRCLE ( 'NONE', #71, 31.49999999999998579 ) ;
#75 = DATE_AND_TIME ( #290, #287 ) ;
#76 = ORIENTED_EDGE ( 'NONE', *, *, #144, .T. ) ;
#77 = SECURITY_CLASSIFICATION_LEVEL ( 'unclassified' ) ;
#78 = EDGE_LOOP ( 'NONE', ( #207, #58, #253, #231 ) ) ;
#79 = APPROVAL_DATE_TIME ( #294, #249 ) ;
#80 = ORIENTED_EDGE ( 'NONE', *, *, #44, .T. ) ;
#81 = AXIS2_PLACEMENT_3D ( 'NONE', #167, #268, #45 ) ;
#82 = ORIENTED_EDGE ( 'NONE', *, *, #125, .T. ) ;
#83 = CARTESIAN_POINT ( 'NONE',  ( 0.0000000000000000000, 0.0000000000000000000, 0.0000000000000000000 ) ) ;
#84 = DIRECTION ( 'NONE',  ( 0.0000000000000000000, 0.0000000000000000000, -1.000000000000000000 ) ) ;
#85 = EDGE_CURVE ( 'NONE', #157, #103, #39, .T. ) ;
#86 = CIRCLE ( 'NONE', #81, 31.49999999999998579 ) ;
#87 = DIRECTION ( 'NONE',  ( 0.0000000000000000000, 0.0000000000000000000, -1.000000000000000000 ) ) ;
#88 = CYLINDRICAL_SURFACE ( 'NONE', #139, 31.49999999999999289 ) ;
#89 = DIRECTION ( 'NONE',  ( -0.0000000000000000000, -1.000000000000000000, -0.0000000000000000000 ) ) ;
#90 = AXIS2_PLACEMENT_3D ( 'NONE', #91, #194, #284 ) ;
#91 = CARTESIAN_POINT ( 'NONE',  ( 25.69999999999999929, 0.0000000000000000000, 0.0000000000000000000 ) ) ;
#92 = CYLINDRICAL_SURFACE ( 'NONE', #56, 25.69999999999999929 ) ;
#93 = DIRECTION ( 'NONE',  ( -1.000000000000000000, 0.0000000000000000000, 0.0000000000000000000 ) ) ;
#94 = EDGE_CURVE ( 'NONE', #176, #11, #17, .T. ) ;
#95 = AXIS2_PLACEMENT_3D ( 'NONE', #43, #142, #245 ) ;
#96 = LOCAL_TIME ( 14, 41, 8.000000000000000000, #54 ) ;
#97 = PERSON_AND_ORGANIZATION ( #218, #217 ) ;
#98 = ADVANCED_FACE ( 'NONE', ( #302 ), #88, .T. ) ;
#99 = PERSON_AND_ORGANIZATION_ROLE ( 'creator' ) ;
#100 = CIRCLE ( 'NONE', #95, 31.50000000000000000 ) ;
#101 = VERTEX_POINT ( 'NONE', #165 ) ;
#102 = PERSON_AND_ORGANIZATION_ROLE ( 'creator' ) ;
#103 = VERTEX_POINT ( 'NONE', #266 ) ;
#104 = COORDINATED_UNIVERSAL_TIME_OFFSET ( 3, 0, .AHEAD. ) ;
#105 = ORIENTED_EDGE ( 'NONE', *, *, #135, .T. ) ;
#106 = ORIENTED_EDGE ( 'NONE', *, *, #168, .F. ) ;
#107 = AXIS2_PLACEMENT_3D ( 'NONE', #67, #166, #267 ) ;
#108 = DIRECTION ( 'NONE',  ( -0.0000000000000000000, -1.000000000000000000, -0.0000000000000000000 ) ) ;
#109 = EDGE_CURVE ( 'NONE', #11, #32, #145, .T. ) ;
#110 = CARTESIAN_POINT ( 'NONE',  ( -1.365261873968612122E-16, -21.55017244698107248, -1.114820922178672680 ) ) ;
#111 = PRODUCT ( 'End Cap SDR11_001 117 0140 0063', 'End Cap SDR11_001 117 0140 0063', '', ( #124 ) ) ;
#112 = DIRECTION ( 'NONE',  ( -0.0000000000000000000, -1.000000000000000000, -0.0000000000000000000 ) ) ;
#113 = CIRCLE ( 'NONE', #107, 25.69999999999999929 ) ;
#114 = CC_DESIGN_APPROVAL ( #189, ( #184 ) ) ;
#115 = CARTESIAN_POINT ( 'NONE',  ( 3.147342273808697725E-15, 0.0000000000000000000, 25.69999999999999929 ) ) ;
#116 = CARTESIAN_POINT ( 'NONE',  ( 0.0000000000000000000, 0.0000000000000000000, -25.69999999999999929 ) ) ;
#117 = FACE_OUTER_BOUND ( 'NONE', #295, .T. ) ;
#118 = AXIS2_PLACEMENT_3D ( 'NONE', #65, #164, #265 ) ;
#119 = CARTESIAN_POINT ( 'NONE',  ( 3.147342273808697331E-15, 63.00000000000000000, 25.69999999999999574 ) ) ;
#120 = DIRECTION ( 'NONE',  ( -0.0000000000000000000, -1.000000000000000000, -0.0000000000000000000 ) ) ;
#121 = EDGE_CURVE ( 'NONE', #132, #32, #18, .T. ) ;
#122 =( NAMED_UNIT ( * ) SI_UNIT ( $, .STERADIAN. ) SOLID_ANGLE_UNIT ( ) );
#123 = AXIS2_PLACEMENT_3D ( 'NONE', #303, #89, #191 ) ;
#124 = MECHANICAL_CONTEXT ( 'NONE', #42, 'mechanical' ) ;
#125 = EDGE_CURVE ( 'NONE', #132, #176, #129, .T. ) ;
#126 = DATE_AND_TIME ( #25, #258 ) ;
#127 = ORIENTED_EDGE ( 'NONE', *, *, #85, .F. ) ;
#128 = DATE_AND_TIME ( #27, #199 ) ;
#129 = CIRCLE ( 'NONE', #123, 25.69999999999999574 ) ;
#130 = ORIENTED_EDGE ( 'NONE', *, *, #297, .T. ) ;
#131 = PERSON_AND_ORGANIZATION ( #218, #217 ) ;
#132 = VERTEX_POINT ( 'NONE', #283 ) ;
#133 = ORIENTED_EDGE ( 'NONE', *, *, #68, .F. ) ;
#134 = AXIS2_PLACEMENT_3D ( 'NONE', #41, #141, #243 ) ;
#135 = EDGE_CURVE ( 'NONE', #32, #11, #113, .T. ) ;
#136 = CARTESIAN_POINT ( 'NONE',  ( 0.0000000000000000000, 0.0000000000000000000, -25.69999999999999929 ) ) ;
#137 = PRODUCT_DEFINITION_SHAPE ( 'NONE', 'NONE',  #184 ) ;
#138 = CARTESIAN_POINT ( 'NONE',  ( 0.0000000000000000000, 0.0000000000000000000, -31.49999999999999289 ) ) ;
#139 = AXIS2_PLACEMENT_3D ( 'NONE', #190, #282, #66 ) ;
#140 = LOCAL_TIME ( 14, 41, 8.000000000000000000, #104 ) ;
#141 = DIRECTION ( 'NONE',  ( -0.0000000000000000000, -1.000000000000000000, -0.0000000000000000000 ) ) ;
#142 = DIRECTION ( 'NONE',  ( -0.0000000000000000000, -1.000000000000000000, -0.0000000000000000000 ) ) ;
#143 = CARTESIAN_POINT ( 'NONE',  ( 0.0000000000000000000, 67.14325152692028098, 0.0000000000000000000 ) ) ;
#144 = EDGE_CURVE ( 'NONE', #29, #103, #100, .T. ) ;
#145 = CIRCLE ( 'NONE', #134, 25.69999999999999929 ) ;
#146 = CARTESIAN_POINT ( 'NONE',  ( 0.0000000000000000000, -21.55017244698107248, 0.0000000000000000000 ) ) ;
#147 =( NAMED_UNIT ( * ) PLANE_ANGLE_UNIT ( ) SI_UNIT ( $, .RADIAN. ) );
#148 = CARTESIAN_POINT ( 'NONE',  ( 0.0000000000000000000, 0.0000000000000000000, 0.0000000000000000000 ) ) ;
#149 = APPROVAL_ROLE ( '' ) ;
#150 = VERTEX_POINT ( 'NONE', #19 ) ;
#151 = APPROVAL_ROLE ( '' ) ;
#152 = ORIENTED_EDGE ( 'NONE', *, *, #121, .T. ) ;
#153 = CALENDAR_DATE ( 2019, 16, 12 ) ;
#154 = ADVANCED_FACE ( 'NONE', ( #117, #222 ), #305, .T. ) ;
#155 = VECTOR ( 'NONE', #219, 1000.000000000000000 ) ;
#156 = PRODUCT_DEFINITION_FORMATION_WITH_SPECIFIED_SOURCE ( 'HERHANGÝ', '', #111, .NOT_KNOWN. ) ;
#157 = VERTEX_POINT ( 'NONE', #69 ) ;
#158 = EDGE_LOOP ( 'NONE', ( #255, #209, #82 ) ) ;
#159 = DIRECTION ( 'NONE',  ( 0.0000000000000000000, 0.0000000000000000000, 1.000000000000000000 ) ) ;
#160 = EDGE_CURVE ( 'NONE', #150, #157, #86, .T. ) ;
#161 = DIRECTION ( 'NONE',  ( 1.000000000000000000, 0.0000000000000000000, -1.224646799147353207E-16 ) ) ;
#162 = VECTOR ( 'NONE', #240, 1000.000000000000000 ) ;
#163 = CARTESIAN_POINT ( 'NONE',  ( 3.857637417314161900E-15, 0.0000000000000000000, 31.49999999999999289 ) ) ;
#164 = DIRECTION ( 'NONE',  ( -0.0000000000000000000, -1.000000000000000000, -0.0000000000000000000 ) ) ;
#165 = CARTESIAN_POINT ( 'NONE',  ( -3.079134169858832593E-14, 72.94325152692029235, 0.0000000000000000000 ) ) ;
#166 = DIRECTION ( 'NONE',  ( -0.0000000000000000000, -1.000000000000000000, -0.0000000000000000000 ) ) ;
#167 = CARTESIAN_POINT ( 'NONE',  ( 0.0000000000000000000, 67.14325152692028098, 0.0000000000000000000 ) ) ;
#168 = EDGE_CURVE ( 'NONE', #157, #150, #74, .T. ) ;
#169 = FACE_OUTER_BOUND ( 'NONE', #228, .T. ) ;
#170 = AXIS2_PLACEMENT_3D ( 'NONE', #239, #301, #87 ) ;
#171 = CIRCLE ( 'NONE', #170, 31.50000000000000000 ) ;
#172 =( LENGTH_UNIT ( ) NAMED_UNIT ( * ) SI_UNIT ( .MILLI., .METRE. ) );
#173 = AXIS2_PLACEMENT_3D ( 'NONE', #15, #112, #214 ) ;
#174 = ORIENTED_EDGE ( 'NONE', *, *, #307, .F. ) ;
#175 = DATE_TIME_ROLE ( 'creation_date' ) ;
#176 = VERTEX_POINT ( 'NONE', #119 ) ;
#177 = CC_DESIGN_PERSON_AND_ORGANIZATION_ASSIGNMENT ( #97, #201, ( #111 ) ) ;
#178 = PERSON_AND_ORGANIZATION ( #218, #217 ) ;
#179 = EDGE_LOOP ( 'NONE', ( #174, #80, #130 ) ) ;
#180 = SHAPE_DEFINITION_REPRESENTATION ( #137, #281 ) ;
#181 = TOROIDAL_SURFACE ( 'NONE', #173, -1.114820922178672680, 88.70042999840951836 ) ;
#182 = CC_DESIGN_SECURITY_CLASSIFICATION ( #242, ( #156 ) ) ;
#183 = ORIENTED_EDGE ( 'NONE', *, *, #94, .F. ) ;
#184 = PRODUCT_DEFINITION ( 'BÝLÝNMEYEN', '', #156, #192 ) ;
#185 = DIRECTION ( 'NONE',  ( -0.0000000000000000000, -1.000000000000000000, -0.0000000000000000000 ) ) ;
#186 = DIRECTION ( 'NONE',  ( 1.000000000000000000, 0.0000000000000000000, -1.224646799147353207E-16 ) ) ;
#187 = AXIS2_PLACEMENT_3D ( 'NONE', #110, #186, #279 ) ;
#188 = FACE_OUTER_BOUND ( 'NONE', #33, .T. ) ;
#189 = APPROVAL ( #49, 'BELÝRTÝLMEMÝÞ' ) ;
#190 = CARTESIAN_POINT ( 'NONE',  ( 0.0000000000000000000, 0.0000000000000000000, 0.0000000000000000000 ) ) ;
#191 = DIRECTION ( 'NONE',  ( 0.0000000000000000000, 0.0000000000000000000, -1.000000000000000000 ) ) ;
#192 = DESIGN_CONTEXT ( 'detailed design', #59, 'design' ) ;
#193 = CIRCLE ( 'NONE', #187, 88.70042999840951836 ) ;
#194 = DIRECTION ( 'NONE',  ( 0.0000000000000000000, -1.000000000000000000, -0.0000000000000000000 ) ) ;
#195 = CC_DESIGN_PERSON_AND_ORGANIZATION_ASSIGNMENT ( #3, #99, ( #184 ) ) ;
#196 = CARTESIAN_POINT ( 'NONE',  ( 0.0000000000000000000, 0.0000000000000000000, 0.0000000000000000000 ) ) ;
#197 = DIRECTION ( 'NONE',  ( 0.0000000000000000000, 0.0000000000000000000, 1.000000000000000000 ) ) ;
#198 = AXIS2_PLACEMENT_3D ( 'NONE', #213, #300, #84 ) ;
#199 = LOCAL_TIME ( 14, 41, 8.000000000000000000, #254 ) ;
#200 = APPLICATION_PROTOCOL_DEFINITION ( 'international standard', 'config_control_design', 1994, #42 ) ;
#201 = PERSON_AND_ORGANIZATION_ROLE ( 'design_owner' ) ;
#202 = COORDINATED_UNIVERSAL_TIME_OFFSET ( 3, 0, .AHEAD. ) ;
#203 = TOROIDAL_SURFACE ( 'NONE', #198, -1.114820922178672680, 94.50000000000001421 ) ;
#204 = CC_DESIGN_DATE_AND_TIME_ASSIGNMENT ( #75, #175, ( #184 ) ) ;
#205 = EDGE_LOOP ( 'NONE', ( #55, #234 ) ) ;
#206 = PERSON_AND_ORGANIZATION ( #218, #217 ) ;
#207 = ORIENTED_EDGE ( 'NONE', *, *, #297, .F. ) ;
#208 = CALENDAR_DATE ( 2019, 16, 12 ) ;
#209 = ORIENTED_EDGE ( 'NONE', *, *, #307, .T. ) ;
#210 = AXIS2_PLACEMENT_3D ( 'NONE', #61, #161, #263 ) ;
#211 = EDGE_LOOP ( 'NONE', ( #183, #269, #152, #105 ) ) ;
#212 = DIRECTION ( 'NONE',  ( 0.0000000000000000000, 0.0000000000000000000, -1.000000000000000000 ) ) ;
#213 = CARTESIAN_POINT ( 'NONE',  ( 0.0000000000000000000, -21.55017244698107248, 0.0000000000000000000 ) ) ;
#214 = DIRECTION ( 'NONE',  ( 0.0000000000000000000, 0.0000000000000000000, -1.000000000000000000 ) ) ;
#215 = AXIS2_PLACEMENT_3D ( 'NONE', #83, #185, #277 ) ;
#216 = APPROVAL ( #52, 'BELÝRTÝLMEMÝÞ' ) ;
#217 = ORGANIZATION ( 'BELÝRTÝLMEMÝÞ', 'BELÝRTÝLMEMÝÞ', '' ) ;
#218 = PERSON ( 'BELÝRTÝLMEMÝÞ', 'BELÝRTÝLMEMÝÞ', 'BELÝRTÝLMEMÝÞ', ('BELÝRTÝLMEMÝÞ'), ('BELÝRTÝLMEMÝÞ'), ('BELÝRTÝLMEMÝÞ') ) ;
#219 = DIRECTION ( 'NONE',  ( -0.0000000000000000000, -1.000000000000000000, -0.0000000000000000000 ) ) ;
#220 = DIRECTION ( 'NONE',  ( -0.0000000000000000000, -1.000000000000000000, -0.0000000000000000000 ) ) ;
#221 = CC_DESIGN_PERSON_AND_ORGANIZATION_ASSIGNMENT ( #6, #102, ( #156 ) ) ;
#222 = FACE_BOUND ( 'NONE', #205, .T. ) ;
#223 = CIRCLE ( 'NONE', #210, 94.50000000000001421 ) ;
#224 = CARTESIAN_POINT ( 'NONE',  ( -1.466637094733969671E-14, 67.14325152692028098, 0.0000000000000000000 ) ) ;
#225 = DIRECTION ( 'NONE',  ( 0.0000000000000000000, 0.0000000000000000000, -1.000000000000000000 ) ) ;
#226 = APPROVAL_DATE_TIME ( #126, #189 ) ;
#227 = CC_DESIGN_PERSON_AND_ORGANIZATION_ASSIGNMENT ( #206, #292, ( #156 ) ) ;
#228 = EDGE_LOOP ( 'NONE', ( #8, #275, #50 ) ) ;
#229 = APPROVAL_DATE_TIME ( #128, #216 ) ;
#230 = AXIS2_PLACEMENT_3D ( 'NONE', #14, #108, #212 ) ;
#231 = ORIENTED_EDGE ( 'NONE', *, *, #121, .F. ) ;
#232 = APPROVAL_STATUS ( 'not_yet_approved' ) ;
#233 = VERTEX_POINT ( 'NONE', #224 ) ;
#234 = ORIENTED_EDGE ( 'NONE', *, *, #109, .F. ) ;
#235 = TOROIDAL_SURFACE ( 'NONE', #230, -1.114820922178672680, 88.70042999840951836 ) ;
#236 = FACE_OUTER_BOUND ( 'NONE', #211, .T. ) ;
#237 = FACE_OUTER_BOUND ( 'NONE', #259, .T. ) ;
#238 = CC_DESIGN_PERSON_AND_ORGANIZATION_ASSIGNMENT ( #178, #272, ( #242 ) ) ;
#239 = CARTESIAN_POINT ( 'NONE',  ( 0.0000000000000000000, 0.0000000000000000000, 0.0000000000000000000 ) ) ;
#240 = DIRECTION ( 'NONE',  ( -0.0000000000000000000, -1.000000000000000000, -0.0000000000000000000 ) ) ;
#241 = AXIS2_PLACEMENT_3D ( 'NONE', #276, #60, #159 ) ;
#242 = SECURITY_CLASSIFICATION ( '', '', #77 ) ;
#243 = DIRECTION ( 'NONE',  ( 0.0000000000000000000, 0.0000000000000000000, -1.000000000000000000 ) ) ;
#244 = CC_DESIGN_DATE_AND_TIME_ASSIGNMENT ( #256, #31, ( #242 ) ) ;
#245 = DIRECTION ( 'NONE',  ( 0.0000000000000000000, 0.0000000000000000000, -1.000000000000000000 ) ) ;
#246 = DIRECTION ( 'NONE',  ( -0.0000000000000000000, -1.000000000000000000, -0.0000000000000000000 ) ) ;
#247 = CIRCLE ( 'NONE', #241, 94.50000000000001421 ) ;
#248 = DIRECTION ( 'NONE',  ( -0.0000000000000000000, -1.000000000000000000, -0.0000000000000000000 ) ) ;
#249 = APPROVAL ( #232, 'BELÝRTÝLMEMÝÞ' ) ;
#250 = DIRECTION ( 'NONE',  ( 0.0000000000000000000, 0.0000000000000000000, 1.000000000000000000 ) ) ;
#251 = PRODUCT_RELATED_PRODUCT_CATEGORY ( 'detail', '', ( #111 ) ) ;
#252 = COORDINATED_UNIVERSAL_TIME_OFFSET ( 3, 0, .AHEAD. ) ;
#253 = ORIENTED_EDGE ( 'NONE', *, *, #109, .T. ) ;
#254 = COORDINATED_UNIVERSAL_TIME_OFFSET ( 3, 0, .AHEAD. ) ;
#255 = ORIENTED_EDGE ( 'NONE', *, *, #44, .F. ) ;
#256 = DATE_AND_TIME ( #153, #96 ) ;
#257 = CLOSED_SHELL ( 'NONE', ( #12, #38, #98, #278, #20, #154, #73, #286, #64 ) ) ;
#258 = LOCAL_TIME ( 14, 41, 8.000000000000000000, #252 ) ;
#259 = EDGE_LOOP ( 'NONE', ( #271, #10, #106 ) ) ;
#260 = ORIENTED_EDGE ( 'NONE', *, *, #85, .T. ) ;
#261 = CARTESIAN_POINT ( 'NONE',  ( 3.147342273808697725E-15, 0.0000000000000000000, 25.69999999999999929 ) ) ;
#262 = VECTOR ( 'NONE', #264, 1000.000000000000000 ) ;
#263 = DIRECTION ( 'NONE',  ( -1.224646799147353207E-16, 0.0000000000000000000, -1.000000000000000000 ) ) ;
#264 = DIRECTION ( 'NONE',  ( -0.0000000000000000000, -1.000000000000000000, -0.0000000000000000000 ) ) ;
#265 = DIRECTION ( 'NONE',  ( 0.0000000000000000000, 0.0000000000000000000, -1.000000000000000000 ) ) ;
#266 = CARTESIAN_POINT ( 'NONE',  ( 0.0000000000000000000, 0.0000000000000000000, -31.50000000000000000 ) ) ;
#267 = DIRECTION ( 'NONE',  ( 0.0000000000000000000, 0.0000000000000000000, -1.000000000000000000 ) ) ;
#268 = DIRECTION ( 'NONE',  ( -0.0000000000000000000, -1.000000000000000000, -0.0000000000000000000 ) ) ;
#269 = ORIENTED_EDGE ( 'NONE', *, *, #125, .F. ) ;
#270 = PERSON_AND_ORGANIZATION ( #218, #217 ) ;
#271 = ORIENTED_EDGE ( 'NONE', *, *, #7, .F. ) ;
#272 = PERSON_AND_ORGANIZATION_ROLE ( 'classification_officer' ) ;
#273 = ORIENTED_EDGE ( 'NONE', *, *, #51, .T. ) ;
#274 = APPROVAL_PERSON_ORGANIZATION ( #131, #249, #9 ) ;
#275 = ORIENTED_EDGE ( 'NONE', *, *, #7, .T. ) ;
#276 = CARTESIAN_POINT ( 'NONE',  ( 0.0000000000000000000, -21.55017244698107248, 1.114820922178672680 ) ) ;
#277 = DIRECTION ( 'NONE',  ( 0.0000000000000000000, 0.0000000000000000000, -1.000000000000000000 ) ) ;
#278 = ADVANCED_FACE ( 'NONE', ( #306 ), #92, .F. ) ;
#279 = DIRECTION ( 'NONE',  ( -1.224646799147353207E-16, 0.0000000000000000000, -1.000000000000000000 ) ) ;
#280 = CYLINDRICAL_SURFACE ( 'NONE', #118, 31.49999999999999289 ) ;
#281 = ADVANCED_BREP_SHAPE_REPRESENTATION ( 'End Cap SDR11_001 117 0140 0063', ( #299, #22 ), #13 ) ;
#282 = DIRECTION ( 'NONE',  ( -0.0000000000000000000, -1.000000000000000000, -0.0000000000000000000 ) ) ;
#283 = CARTESIAN_POINT ( 'NONE',  ( 0.0000000000000000000, 63.00000000000000000, -25.69999999999999574 ) ) ;
#284 = DIRECTION ( 'NONE',  ( 0.0000000000000000000, 0.0000000000000000000, -1.000000000000000000 ) ) ;
#285 = DIRECTION ( 'NONE',  ( -0.0000000000000000000, -1.000000000000000000, -0.0000000000000000000 ) ) ;
#286 = ADVANCED_FACE ( 'NONE', ( #169 ), #62, .T. ) ;
#287 = LOCAL_TIME ( 14, 41, 8.000000000000000000, #202 ) ;
#288 = APPLICATION_PROTOCOL_DEFINITION ( 'international standard', 'config_control_design', 1994, #59 ) ;
#289 = VECTOR ( 'NONE', #220, 1000.000000000000000 ) ;
#290 = CALENDAR_DATE ( 2019, 16, 12 ) ;
#291 = ORIENTED_EDGE ( 'NONE', *, *, #168, .T. ) ;
#292 = PERSON_AND_ORGANIZATION_ROLE ( 'design_supplier' ) ;
#293 = ORIENTED_EDGE ( 'NONE', *, *, #160, .T. ) ;
#294 = DATE_AND_TIME ( #208, #140 ) ;
#295 = EDGE_LOOP ( 'NONE', ( #296, #76 ) ) ;
#296 = ORIENTED_EDGE ( 'NONE', *, *, #68, .T. ) ;
#297 = EDGE_CURVE ( 'NONE', #176, #132, #47, .T. ) ;
#298 = CYLINDRICAL_SURFACE ( 'NONE', #215, 25.69999999999999929 ) ;
#299 = MANIFOLD_SOLID_BREP ( 'Döndür1', #257 ) ;
#300 = DIRECTION ( 'NONE',  ( -0.0000000000000000000, -1.000000000000000000, -0.0000000000000000000 ) ) ;
#301 = DIRECTION ( 'NONE',  ( -0.0000000000000000000, -1.000000000000000000, -0.0000000000000000000 ) ) ;
#302 = FACE_OUTER_BOUND ( 'NONE', #53, .T. ) ;
#303 = CARTESIAN_POINT ( 'NONE',  ( 0.0000000000000000000, 63.00000000000000000, 0.0000000000000000000 ) ) ;
#304 = UNCERTAINTY_MEASURE_WITH_UNIT (LENGTH_MEASURE( 1.000000000000000082E-05 ), #172, 'distance_accuracy_value', 'NONE');
#305 = PLANE ( 'NONE',  #90 ) ;
#306 = FACE_OUTER_BOUND ( 'NONE', #78, .T. ) ;
#307 = EDGE_CURVE ( 'NONE', #233, #132, #35, .T. ) ;
ENDSEC;
END-ISO-10303-21;
